Крутые Скалы


Главная | Ты ушла | Регистрация | Вход | RSS
--> Intro (4x)
-----------|3
D---2---0--|4
A--2-2---0-|5
E-0---3----|6

Am     C    Am        C
Ты ушла, закрыла дверь.
Ну и что мне делать теперь?
Тебя вернуть я уже не смогу.
А зачем? Другую найду.

A5     C5 A5     C5
У меня застыла кровь,
Навсегда ушла любовь.
Отпущу навеки тебя,
Нелюбовь моя.

Когда тебя я найду в толпе,
То смогу рассказать я тебе.
Что ты мне больше не нужна,
И что ты больше не моя.

У меня застыла кровь,
Навсегда ушла любовь.
Отпущу навеки тебя,
Нелюбовь моя.

Solo - Hard Riff (2x)

   A5              C5                A5             C5
E|---------------------------------|---------------------------------|1
H|---------------------------------|---------------------------------|2
G|-------------------------9-9-9-9-|-7--h9p7-------------------------|6
D|-7---7-7-7---9---10101010--------|---------10--9---7-7-7-7-10--9---|4
A|---------------------------------|---------------------------------|5
E|---------------------------------|---------------------------------|6


И если ты вдруг придёшь ко мне,
То я сразу скажу тебе,
Что у меня другая была,
И любовь к тебе прошла.

У меня застыла кровь,
Навсегда ушла любовь.
Навсегда я забуду тебя,
Нелюбовь моя.

Это наша самая тяжёлая песня.
Играть с Distortion и
вспоминать про Nirvana
"Smells Like Teen Spirit".

                   Alex/Mike.

Понедельник, 23.10.2017, 03:33
Приветствуем Вас, Гость
Вход в Скалы

Поиск
Новости
«  Октябрь 2017  »
ПнВтСрЧтПтСбВс
      1
2345678
9101112131415
16171819202122
23242526272829
3031
Рассылка
Скалистый рок-н-ролл
Подписаться письмом
Скалистый Twitter
ВКонтакте
Одноклассники
Facebook


Архив новостей
2003 [42]
2004 [30]
2005 [42]
2006 [38]
2007 [39]
2008 [37]
2009 [31]
2010 [37]
2011 [42]
2012 [54]
2013 [58]
2014 [57]
2015 [62]
2016 [65]
2017 [39]
Статистика

Онлайн всего: 1
Гостей: 1
Поклонников: 0
...

Copyright MyCorp © 2002-2017